Comment on the avatar above you

    Share
    avatar
    Soul of Stray Demon
    Revived
    Revived

    Posts : 2424
    Reputation : 39
    Join date : 2013-06-11
    Age : 21
    Location : Sitting next to Encore... "watching television"

    Re: Comment on the avatar above you

    Post by Soul of Stray Demon on Sun Sep 01, 2013 1:31 pm

    WaffleGuy wrote:Even Antman will have problems reading that text, Cat silly 

    But it looks like a sad girl with a cat(?) costume. Stray would probably say it needs more pink!


    (btw, making a thread is kind of troublesome. I'm this close away from clicking the 'Thanks' button instead of the 'Quote' button. Jeez silly )
    To be fair, It always needs more pink....  And I really don't know if a colorful egghead is all that pretty, but it is a nice idea.

    avatar
    Bassman Bob
    Addicted
    Addicted

    Posts : 253
    Reputation : 6
    Join date : 2013-08-02
    Age : 19
    Location : All over the damn place.

    Re: Comment on the avatar above you

    Post by Bassman Bob on Sun Sep 01, 2013 1:35 pm

    That pic always confuses me. More specifically that expression, Is she pissed, nervous, concentrating way more than she should???


    _________________
    G|-------0-2-------------------------------------------------------------------------------------------------------0-2----------------------------------|
    D|-2-4------4-2-0-2-4-5--5-2---------2-4-----------0-2--2-------------------------2---0--4-0-2--2-4------4-2-0-2-4-5--5-2--------------------|
    A|---------------------------------5-4-0-5-----5-4-2-4----------4-2-1-----2--5-2-4---4----------------------------------------------5-4--0--------|
    E|---------------------------------------------------------------------------22--------------------------------------------------------------------------|

    Disciple of the Exiled of Ariamis.
    GT: JazzBlaster J
    avatar
    Encore
    Chosen Undead
    Chosen Undead

    Posts : 4317
    Reputation : 28
    Join date : 2013-05-12
    Age : 20
    Location : Bracing myself for the Winds of Change, being supported by the towering pillars of my friends.

    Re: Comment on the avatar above you

    Post by Encore on Sun Sep 01, 2013 1:43 pm

    I tried to edit the text, it's just too large... I'll do another one later, here's what it says:

    What have you become? You have become a false painting of yourself. You have become engulfed in a culture of fire and lust.


    You will face your own fall, and when you hit the ground deep below, you will turn to ashes and be reborn.


    Will you face your fears and stare into the pits of hell, and with determination carry on, or will you succumb to the lure of the abyss, descending into what you once were?


    What have you become? You have become a stained canvas, a soul unable to be reborn. May the hands of fate guide you, because I failed


    _________________
    It is all like the repeating drip of thickening oil...

    Song of Myself
    avatar
    Soul of Stray Demon
    Revived
    Revived

    Posts : 2424
    Reputation : 39
    Join date : 2013-06-11
    Age : 21
    Location : Sitting next to Encore... "watching television"

    Re: Comment on the avatar above you

    Post by Soul of Stray Demon on Sun Sep 01, 2013 1:45 pm

    Teh Kitten´s Cat wrote:I tried to edit the text, it's just too large... I'll do another one later, here's what it says:

    What have you become? You have become a false painting of yourself. You have become engulfed in a culture of fire and lust.


    You will face your own fall, and when you hit the ground deep below, you will turn to ashes and be reborn.


    Will you face your fears and stare into the pits of hell, and with determination carry on, or will you succumb to the lure of the abyss, descending into what you once were?


    What have you become? You have become a stained canvas, a soul unable to be reborn. May the hands of fate guide you, because I failed
    Isn't that the one you wrote, Kitten?

    avatar
    Encore
    Chosen Undead
    Chosen Undead

    Posts : 4317
    Reputation : 28
    Join date : 2013-05-12
    Age : 20
    Location : Bracing myself for the Winds of Change, being supported by the towering pillars of my friends.

    Re: Comment on the avatar above you

    Post by Encore on Sun Sep 01, 2013 1:52 pm

    It is the one I wrote. I edited onto the picture.


    _________________
    It is all like the repeating drip of thickening oil...

    Song of Myself
    avatar
    Soul of Stray Demon
    Revived
    Revived

    Posts : 2424
    Reputation : 39
    Join date : 2013-06-11
    Age : 21
    Location : Sitting next to Encore... "watching television"

    Re: Comment on the avatar above you

    Post by Soul of Stray Demon on Sun Sep 01, 2013 1:54 pm

    What's in the background then? It's so hard to see.

    avatar
    Bassman Bob
    Addicted
    Addicted

    Posts : 253
    Reputation : 6
    Join date : 2013-08-02
    Age : 19
    Location : All over the damn place.

    Re: Comment on the avatar above you

    Post by Bassman Bob on Sun Sep 01, 2013 1:56 pm

    Seems like it would make good lyrics for some stoner/doom song big grin


    _________________
    G|-------0-2-------------------------------------------------------------------------------------------------------0-2----------------------------------|
    D|-2-4------4-2-0-2-4-5--5-2---------2-4-----------0-2--2-------------------------2---0--4-0-2--2-4------4-2-0-2-4-5--5-2--------------------|
    A|---------------------------------5-4-0-5-----5-4-2-4----------4-2-1-----2--5-2-4---4----------------------------------------------5-4--0--------|
    E|---------------------------------------------------------------------------22--------------------------------------------------------------------------|

    Disciple of the Exiled of Ariamis.
    GT: JazzBlaster J
    avatar
    Soul of Stray Demon
    Revived
    Revived

    Posts : 2424
    Reputation : 39
    Join date : 2013-06-11
    Age : 21
    Location : Sitting next to Encore... "watching television"

    Re: Comment on the avatar above you

    Post by Soul of Stray Demon on Sun Sep 01, 2013 1:58 pm

    Bassman Bob wrote:Seems like it would make good lyrics for some stoner/doom song big grin
    Your pic would make a great album cover for the song.

    avatar
    Bassman Bob
    Addicted
    Addicted

    Posts : 253
    Reputation : 6
    Join date : 2013-08-02
    Age : 19
    Location : All over the damn place.

    Re: Comment on the avatar above you

    Post by Bassman Bob on Sun Sep 01, 2013 2:05 pm

    Soul of Stray Demon wrote:
    Bassman Bob wrote:Seems like it would make good lyrics for some stoner/doom song big grin
    Your pic would make a great album cover for the song.
    Wich might be next on my agenda after i'm finished with this trip-hop project.


    Last edited by Bassman Bob on Sun Sep 01, 2013 2:19 pm; edited 1 time in total


    _________________
    G|-------0-2-------------------------------------------------------------------------------------------------------0-2----------------------------------|
    D|-2-4------4-2-0-2-4-5--5-2---------2-4-----------0-2--2-------------------------2---0--4-0-2--2-4------4-2-0-2-4-5--5-2--------------------|
    A|---------------------------------5-4-0-5-----5-4-2-4----------4-2-1-----2--5-2-4---4----------------------------------------------5-4--0--------|
    E|---------------------------------------------------------------------------22--------------------------------------------------------------------------|

    Disciple of the Exiled of Ariamis.
    GT: JazzBlaster J
    avatar
    Soul of Stray Demon
    Revived
    Revived

    Posts : 2424
    Reputation : 39
    Join date : 2013-06-11
    Age : 21
    Location : Sitting next to Encore... "watching television"

    Re: Comment on the avatar above you

    Post by Soul of Stray Demon on Sun Sep 01, 2013 2:07 pm

    I don't believe so, I did comment on your avatar.

    avatar
    Bassman Bob
    Addicted
    Addicted

    Posts : 253
    Reputation : 6
    Join date : 2013-08-02
    Age : 19
    Location : All over the damn place.

    Re: Comment on the avatar above you

    Post by Bassman Bob on Sun Sep 01, 2013 2:18 pm

    Soul of Stray Demon wrote:I don't believe so, I did comment on your avatar.
    Oh, i edited the wrong post in the wrong thread, how'd that happen?. Sorry bout that. No, i don't think it's off-topic.


    _________________
    G|-------0-2-------------------------------------------------------------------------------------------------------0-2----------------------------------|
    D|-2-4------4-2-0-2-4-5--5-2---------2-4-----------0-2--2-------------------------2---0--4-0-2--2-4------4-2-0-2-4-5--5-2--------------------|
    A|---------------------------------5-4-0-5-----5-4-2-4----------4-2-1-----2--5-2-4---4----------------------------------------------5-4--0--------|
    E|---------------------------------------------------------------------------22--------------------------------------------------------------------------|

    Disciple of the Exiled of Ariamis.
    GT: JazzBlaster J
    avatar
    Soul of Stray Demon
    Revived
    Revived

    Posts : 2424
    Reputation : 39
    Join date : 2013-06-11
    Age : 21
    Location : Sitting next to Encore... "watching television"

    Re: Comment on the avatar above you

    Post by Soul of Stray Demon on Sun Sep 01, 2013 2:20 pm

    But yet, I don't get a rating from you? ........

    avatar
    Bassman Bob
    Addicted
    Addicted

    Posts : 253
    Reputation : 6
    Join date : 2013-08-02
    Age : 19
    Location : All over the damn place.

    Re: Comment on the avatar above you

    Post by Bassman Bob on Sun Sep 01, 2013 2:23 pm

    I like that one quite a lot. But it's so small that i can't tell if they're floating or sitting. But i like it.


    _________________
    G|-------0-2-------------------------------------------------------------------------------------------------------0-2----------------------------------|
    D|-2-4------4-2-0-2-4-5--5-2---------2-4-----------0-2--2-------------------------2---0--4-0-2--2-4------4-2-0-2-4-5--5-2--------------------|
    A|---------------------------------5-4-0-5-----5-4-2-4----------4-2-1-----2--5-2-4---4----------------------------------------------5-4--0--------|
    E|---------------------------------------------------------------------------22--------------------------------------------------------------------------|

    Disciple of the Exiled of Ariamis.
    GT: JazzBlaster J
    avatar
    tigab95
    Obsessed
    Obsessed

    Posts : 481
    Reputation : 2
    Join date : 2013-08-01
    Age : 22
    Location : Canada

    Re: Comment on the avatar above you

    Post by tigab95 on Sun Sep 01, 2013 2:24 pm

    its creepy and I love it


    _________________
    XBOX GamerTag : tigab95 


    if anyone want to Coop Praise the Sun or PVP   Duel
    avatar
    Soul of Stray Demon
    Revived
    Revived

    Posts : 2424
    Reputation : 39
    Join date : 2013-06-11
    Age : 21
    Location : Sitting next to Encore... "watching television"

    Re: Comment on the avatar above you

    Post by Soul of Stray Demon on Sun Sep 01, 2013 2:25 pm

    WAAAAH, I MISS THE RATING THREAD.  ...........


    Now that my sadness is over (it's still going waaaaaah.)  


    Ok, I'm over it. I really like the color scheme of your avatar. It looks like the girl is wearing a little hair bow, it's adorable.

    avatar
    tigab95
    Obsessed
    Obsessed

    Posts : 481
    Reputation : 2
    Join date : 2013-08-01
    Age : 22
    Location : Canada

    Re: Comment on the avatar above you

    Post by tigab95 on Sun Sep 01, 2013 2:26 pm

    Pink as always XD


    _________________
    XBOX GamerTag : tigab95 


    if anyone want to Coop Praise the Sun or PVP   Duel
    avatar
    Bassman Bob
    Addicted
    Addicted

    Posts : 253
    Reputation : 6
    Join date : 2013-08-02
    Age : 19
    Location : All over the damn place.

    Re: Comment on the avatar above you

    Post by Bassman Bob on Sun Sep 01, 2013 2:32 pm

    Woah, i never noticed this before. Sif is sitting down in that pic! I love that pic. I've got that as my desktop background.


    _________________
    G|-------0-2-------------------------------------------------------------------------------------------------------0-2----------------------------------|
    D|-2-4------4-2-0-2-4-5--5-2---------2-4-----------0-2--2-------------------------2---0--4-0-2--2-4------4-2-0-2-4-5--5-2--------------------|
    A|---------------------------------5-4-0-5-----5-4-2-4----------4-2-1-----2--5-2-4---4----------------------------------------------5-4--0--------|
    E|---------------------------------------------------------------------------22--------------------------------------------------------------------------|

    Disciple of the Exiled of Ariamis.
    GT: JazzBlaster J
    avatar
    Soul of Stray Demon
    Revived
    Revived

    Posts : 2424
    Reputation : 39
    Join date : 2013-06-11
    Age : 21
    Location : Sitting next to Encore... "watching television"

    Re: Comment on the avatar above you

    Post by Soul of Stray Demon on Sun Sep 01, 2013 2:34 pm

    WAIT, Sif is sitting down? I thought they Sif was on Artorias' lap. That makes it a little different.

    avatar
    Bassman Bob
    Addicted
    Addicted

    Posts : 253
    Reputation : 6
    Join date : 2013-08-02
    Age : 19
    Location : All over the damn place.

    Re: Comment on the avatar above you

    Post by Bassman Bob on Sun Sep 01, 2013 2:39 pm

    Soul of Stray Demon wrote:WAIT, Sif is sitting down? I thought they Sif was on Artorias' lap. That makes it a little different.
    It's true, you can see sif's legs!


    _________________
    G|-------0-2-------------------------------------------------------------------------------------------------------0-2----------------------------------|
    D|-2-4------4-2-0-2-4-5--5-2---------2-4-----------0-2--2-------------------------2---0--4-0-2--2-4------4-2-0-2-4-5--5-2--------------------|
    A|---------------------------------5-4-0-5-----5-4-2-4----------4-2-1-----2--5-2-4---4----------------------------------------------5-4--0--------|
    E|---------------------------------------------------------------------------22--------------------------------------------------------------------------|

    Disciple of the Exiled of Ariamis.
    GT: JazzBlaster J
    avatar
    tigab95
    Obsessed
    Obsessed

    Posts : 481
    Reputation : 2
    Join date : 2013-08-01
    Age : 22
    Location : Canada

    Re: Comment on the avatar above you

    Post by tigab95 on Sun Sep 01, 2013 2:40 pm

    Yes hes sitting down


    _________________
    XBOX GamerTag : tigab95 


    if anyone want to Coop Praise the Sun or PVP   Duel
    avatar
    tigab95
    Obsessed
    Obsessed

    Posts : 481
    Reputation : 2
    Join date : 2013-08-01
    Age : 22
    Location : Canada

    Re: Comment on the avatar above you

    Post by tigab95 on Sun Sep 01, 2013 2:41 pm

    I think Im going to change my avatar soon , but I dont know what to choose


    _________________
    XBOX GamerTag : tigab95 


    if anyone want to Coop Praise the Sun or PVP   Duel
    avatar
    Bassman Bob
    Addicted
    Addicted

    Posts : 253
    Reputation : 6
    Join date : 2013-08-02
    Age : 19
    Location : All over the damn place.

    Re: Comment on the avatar above you

    Post by Bassman Bob on Sun Sep 01, 2013 3:09 pm

    I dunno, Kalameet?


    _________________
    G|-------0-2-------------------------------------------------------------------------------------------------------0-2----------------------------------|
    D|-2-4------4-2-0-2-4-5--5-2---------2-4-----------0-2--2-------------------------2---0--4-0-2--2-4------4-2-0-2-4-5--5-2--------------------|
    A|---------------------------------5-4-0-5-----5-4-2-4----------4-2-1-----2--5-2-4---4----------------------------------------------5-4--0--------|
    E|---------------------------------------------------------------------------22--------------------------------------------------------------------------|

    Disciple of the Exiled of Ariamis.
    GT: JazzBlaster J
    avatar
    Soul of Stray Demon
    Revived
    Revived

    Posts : 2424
    Reputation : 39
    Join date : 2013-06-11
    Age : 21
    Location : Sitting next to Encore... "watching television"

    Re: Comment on the avatar above you

    Post by Soul of Stray Demon on Sun Sep 01, 2013 3:11 pm

    Alvina and Pharis cuddling.

    avatar
    tigab95
    Obsessed
    Obsessed

    Posts : 481
    Reputation : 2
    Join date : 2013-08-01
    Age : 22
    Location : Canada

    Re: Comment on the avatar above you

    Post by tigab95 on Sun Sep 01, 2013 3:32 pm

    Ive changed it XD


    _________________
    XBOX GamerTag : tigab95 


    if anyone want to Coop Praise the Sun or PVP   Duel
    avatar
    Bassman Bob
    Addicted
    Addicted

    Posts : 253
    Reputation : 6
    Join date : 2013-08-02
    Age : 19
    Location : All over the damn place.

    Re: Comment on the avatar above you

    Post by Bassman Bob on Sun Sep 01, 2013 3:42 pm

    Looks like he got ganked by hackers.devil


    _________________
    G|-------0-2-------------------------------------------------------------------------------------------------------0-2----------------------------------|
    D|-2-4------4-2-0-2-4-5--5-2---------2-4-----------0-2--2-------------------------2---0--4-0-2--2-4------4-2-0-2-4-5--5-2--------------------|
    A|---------------------------------5-4-0-5-----5-4-2-4----------4-2-1-----2--5-2-4---4----------------------------------------------5-4--0--------|
    E|---------------------------------------------------------------------------22--------------------------------------------------------------------------|

    Disciple of the Exiled of Ariamis.
    GT: JazzBlaster J

    Sponsored content

    Re: Comment on the avatar above you

    Post by Sponsored content


      Current date/time is Tue Oct 17, 2017 3:18 am